  0
SECTION
  2
HEADER
  9
$ACADVER
  1
AC1015
  9
$ACADMAINTVER
 70
     6
  9
$DWGCODEPAGE
  3
ANSI_1252
  9
$INSBASE
 10
-177.891123048332
 20
23.74580947649822
 30
0.0
  9
$EXTMIN
 10
-285.2016510070804
 20
-73.26649350425416
 30
-0.0000000000000023
  9
$EXTMAX
 10
-62.85310823238722
 20
68.87265754224964
 30
0.0
  9
$LIMMIN
 10
0.0
 20
0.0
  9
$LIMMAX
 10
12.0
 20
9.0
  9
$ORTHOMODE
 70
     1
  9
$REGENMODE
 70
     1
  9
$FILLMODE
 70
     1
  9
$QTEXTMODE
 70
     0
  9
$MIRRTEXT
 70
     0
  9
$LTSCALE
 40
1.0
  9
$ATTMODE
 70
     1
  9
$TEXTSIZE
 40
0.2
  9
$TRACEWID
 40
0.05
  9
$TEXTSTYLE
  7
Standard
  9
$CLAYER
  8
0
  9
$CELTYPE
  6
ByLayer
  9
$CECOLOR
 62
   256
  9
$CELTSCALE
 40
1.0
  9
$DISPSILH
 70
     0
  9
$DIMSCALE
 40
1.0
  9
$DIMASZ
 40
0.18
  9
$DIMEXO
 40
0.0625
  9
$DIMDLI
 40
0.38
  9
$DIMRND
 40
0.0
  9
$DIMDLE
 40
0.0
  9
$DIMEXE
 40
0.18
  9
$DIMTP
 40
0.0
  9
$DIMTM
 40
0.0
  9
$DIMTXT
 40
0.18
  9
$DIMCEN
 40
0.09
  9
$DIMTSZ
 40
0.0
  9
$DIMTOL
 70
     0
  9
$DIMLIM
 70
     0
  9
$DIMTIH
 70
     1
  9
$DIMTOH
 70
     1
  9
$DIMSE1
 70
     0
  9
$DIMSE2
 70
     0
  9
$DIMTAD
 70
     0
  9
$DIMZIN
 70
     0
  9
$DIMBLK
  1

  9
$DIMASO
 70
     1
  9
$DIMSHO
 70
     1
  9
$DIMPOST
  1

  9
$DIMAPOST
  1

  9
$DIMALT
 70
     0
  9
$DIMALTD
 70
     2
  9
$DIMALTF
 40
25.4
  9
$DIMLFAC
 40
1.0
  9
$DIMTOFL
 70
     0
  9
$DIMTVP
 40
0.0
  9
$DIMTIX
 70
     0
  9
$DIMSOXD
 70
     0
  9
$DIMSAH
 70
     0
  9
$DIMBLK1
  1

  9
$DIMBLK2
  1

  9
$DIMSTYLE
  2
Standard
  9
$DIMCLRD
 70
     0
  9
$DIMCLRE
 70
     0
  9
$DIMCLRT
 70
     0
  9
$DIMTFAC
 40
1.0
  9
$DIMGAP
 40
0.09
  9
$DIMJUST
 70
     0
  9
$DIMSD1
 70
     0
  9
$DIMSD2
 70
     0
  9
$DIMTOLJ
 70
     1
  9
$DIMTZIN
 70
     0
  9
$DIMALTZ
 70
     0
  9
$DIMALTTZ
 70
     0
  9
$DIMUPT
 70
     0
  9
$DIMDEC
 70
     4
  9
$DIMTDEC
 70
     4
  9
$DIMALTU
 70
     2
  9
$DIMALTTD
 70
     2
  9
$DIMTXSTY
  7
Standard
  9
$DIMAUNIT
 70
     0
  9
$DIMADEC
 70
     0
  9
$DIMALTRND
 40
0.0
  9
$DIMAZIN
 70
     0
  9
$DIMDSEP
 70
    46
  9
$DIMATFIT
 70
     3
  9
$DIMFRAC
 70
     0
  9
$DIMLDRBLK
  1

  9
$DIMLUNIT
 70
     2
  9
$DIMLWD
 70
    -2
  9
$DIMLWE
 70
    -2
  9
$DIMTMOVE
 70
     0
  9
$LUNITS
 70
     2
  9
$LUPREC
 70
     4
  9
$SKETCHINC
 40
0.1
  9
$FILLETRAD
 40
0.25
  9
$AUNITS
 70
     0
  9
$AUPREC
 70
     0
  9
$MENU
  1
.
  9
$ELEVATION
 40
0.0
  9
$PELEVATION
 40
0.0
  9
$THICKNESS
 40
0.0
  9
$LIMCHECK
 70
     0
  9
$CHAMFERA
 40
0.0
  9
$CHAMFERB
 40
0.0
  9
$CHAMFERC
 40
0.0
  9
$CHAMFERD
 40
0.0
  9
$SKPOLY
 70
     0
  9
$TDCREATE
 40
2454608.616975995
  9
$TDUCREATE
 40
2454608.825309329
  9
$TDUPDATE
 40
2454749.340835209
  9
$TDUUPDATE
 40
2454749.549168542
  9
$TDINDWG
 40
1.3265756944
  9
$TDUSRTIMER
 40
1.3265756944
  9
$USRTIMER
 70
     1
  9
$ANGBASE
 50
0.0
  9
$ANGDIR
 70
     0
  9
$PDMODE
 70
     0
  9
$PDSIZE
 40
0.0
  9
$PLINEWID
 40
0.0
  9
$SPLFRAME
 70
     0
  9
$SPLINETYPE
 70
     6
  9
$SPLINESEGS
 70
     8
  9
$HANDSEED
  5
E4
  9
$SURFTAB1
 70
     6
  9
$SURFTAB2
 70
     6
  9
$SURFTYPE
 70
     6
  9
$SURFU
 70
     6
  9
$SURFV
 70
     6
  9
$UCSBASE
  2

  9
$UCSNAME
  2

  9
$UCSORG
 10
0.0
 20
0.0
 30
0.0
  9
$UCSXDIR
 10
1.0
 20
0.0
 30
0.0
  9
$UCSYDIR
 10
0.0
 20
1.0
 30
0.0
  9
$UCSORTHOREF
  2

  9
$UCSORTHOVIEW
 70
     0
  9
$UCSORGTOP
 10
0.0
 20
0.0
 30
0.0
  9
$UCSORGBOTTOM
 10
0.0
 20
0.0
 30
0.0
  9
$UCSORGLEFT
 10
0.0
 20
0.0
 30
0.0
  9
$UCSORGRIGHT
 10
0.0
 20
0.0
 30
0.0
  9
$UCSORGFRONT
 10
0.0
 20
0.0
 30
0.0
  9
$UCSORGBACK
 10
0.0
 20
0.0
 30
0.0
  9
$PUCSBASE
  2

  9
$PUCSNAME
  2

  9
$PUCSORG
 10
0.0
 20
0.0
 30
0.0
  9
$PUCSXDIR
 10
1.0
 20
0.0
 30
0.0
  9
$PUCSYDIR
 10
0.0
 20
1.0
 30
0.0
  9
$PUCSORTHOREF
  2

  9
$PUCSORTHOVIEW
 70
     0
  9
$PUCSORGTOP
 10
0.0
 20
0.0
 30
0.0
  9
$PUCSORGBOTTOM
 10
0.0
 20
0.0
 30
0.0
  9
$PUCSORGLEFT
 10
0.0
 20
0.0
 30
0.0
  9
$PUCSORGRIGHT
 10
0.0
 20
0.0
 30
0.0
  9
$PUCSORGFRONT
 10
0.0
 20
0.0
 30
0.0
  9
$PUCSORGBACK
 10
0.0
 20
0.0
 30
0.0
  9
$USERI1
 70
     0
  9
$USERI2
 70
     0
  9
$USERI3
 70
     0
  9
$USERI4
 70
     0
  9
$USERI5
 70
     0
  9
$USERR1
 40
0.0
  9
$USERR2
 40
0.0
  9
$USERR3
 40
0.0
  9
$USERR4
 40
0.0
  9
$USERR5
 40
0.0
  9
$WORLDVIEW
 70
     1
  9
$SHADEDGE
 70
     3
  9
$SHADEDIF
 70
    70
  9
$TILEMODE
 70
     1
  9
$MAXACTVP
 70
    64
  9
$PINSBASE
 10
0.0
 20
0.0
 30
0.0
  9
$PLIMCHECK
 70
     0
  9
$PEXTMIN
 10
0.0
 20
0.0
 30
0.0
  9
$PEXTMAX
 10
0.0
 20
0.0
 30
0.0
  9
$PLIMMIN
 10
0.0
 20
0.0
  9
$PLIMMAX
 10
12.0
 20
9.0
  9
$UNITMODE
 70
     0
  9
$VISRETAIN
 70
     1
  9
$PLINEGEN
 70
     0
  9
$PSLTSCALE
 70
     1
  9
$TREEDEPTH
 70
  3020
  9
$CMLSTYLE
  2
Standard
  9
$CMLJUST
 70
     0
  9
$CMLSCALE
 40
1.0
  9
$PROXYGRAPHICS
 70
     1
  9
$MEASUREMENT
 70
     0
  9
$CELWEIGHT
370
    -1
  9
$ENDCAPS
280
     0
  9
$JOINSTYLE
280
     0
  9
$LWDISPLAY
290
     0
  9
$INSUNITS
 70
     1
  9
$HYPERLINKBASE
  1

  9
$STYLESHEET
  1

  9
$XEDIT
290
     1
  9
$CEPSNTYPE
380
     0
  9
$PSTYLEMODE
290
     1
  9
$FINGERPRINTGUID
  2
{35CB775B-E2E5-495B-AF87-DB1717487746}
  9
$VERSIONGUID
  2
{0860021D-7E47-4E8B-9CBF-8B35C9066C4F}
  9
$EXTNAMES
290
     1
  9
$PSVPSCALE
 40
0.0
  9
$OLESTARTUP
290
     0
  0
ENDSEC
  0
SECTION
  2
CLASSES
  0
CLASS
  1
ACDBDICTIONARYWDFLT
  2
AcDbDictionaryWithDefault
  3
ObjectDBX Classes
 90
        0
280
     0
281
     0
  0
CLASS
  1
ACDBPLACEHOLDER
  2
AcDbPlaceHolder
  3
ObjectDBX Classes
 90
        0
280
     0
281
     0
  0
CLASS
  1
LAYOUT
  2
AcDbLayout
  3
ObjectDBX Classes
 90
        0
280
     0
281
     0
  0
CLASS
  1
DICTIONARYVAR
  2
AcDbDictionaryVar
  3
ObjectDBX Classes
 90
        0
280
     0
281
     0
  0
CLASS
  1
TABLESTYLE
  2
AcDbTableStyle
  3
ObjectDBX Classes
 90
     2047
280
     0
281
     0
  0
CLASS
  1
MATERIAL
  2
AcDbMaterial
  3
ObjectDBX Classes
 90
        0
280
     0
281
     0
  0
CLASS
  1
VISUALSTYLE
  2
AcDbVisualStyle
  3
ObjectDBX Classes
 90
     4095
280
     1
281
     0
  0
CLASS
  1
SCALE
  2
AcDbScale
  3
ObjectDBX Classes
 90
     1153
280
     1
281
     0
  0
CLASS
  1
MLEADERSTYLE
  2
AcDbMLeaderStyle
  3
ACDB_MLEADERSTYLE_CLASS
 90
   -61441
280
     1
281
     0
  0
CLASS
  1
CELLSTYLEMAP
  2
AcDbCellStyleMap
  3
ObjectDBX Classes
 90
     1152
280
     1
281
     0
  0
CLASS
  1
SORTENTSTABLE
  2
AcDbSortentsTable
  3
ObjectDBX Classes
 90
        0
280
     0
281
     0
  0
CLASS
  1
SOLID_BACKGROUND
  2
AcDbSolidBackground
  3
SCENEOE
 90
   -61441
280
     1
281
     0
  0
CLASS
  1
NPOCOLLECTION
  2
AcDbImpNonPersistentObjectsCollection
  3
ObjectDBX Classes
 90
   -64383
280
     1
281
     0
  0
CLASS
  1
ACDB_MTEXTATTRIBUTEOBJECTCONTEXTDATA_CLASS
  2
AcDbMTextAttributeObjectContextData
  3
ObjectDBX Classes
 90
   -64383
280
     1
281
     0
  0
CLASS
  1
DIMASSOC
  2
AcDbDimAssoc
  3
"AcDbDimAssoc|Product Desc:     AcDim ARX App For Dimension|Company:          Autodesk, Inc.|WEB Address:      www.autodesk.com"
 90
        0
280
     0
281
     0
  0
ENDSEC
  0
SECTION
  2
TABLES
  0
TABLE
  2
VPORT
  5
29
330
0
100
AcDbSymbolTable
 70
     1
  0
VPORT
  5
2A
330
29
100
AcDbSymbolTableRecord
100
AcDbViewportTableRecord
  2
*Active
 70
     0
 10
0.0
 20
0.0
 11
1.0
 21
1.0
 12
-175.8860631212443
 22
13.4298357553397
 13
0.0
 23
0.0
 14
0.5
 24
0.5
 15
0.5
 25
0.5
 16
0.0
 26
0.0
 36
1.0
 17
0.0
 27
0.0
 37
0.0
 40
36.65868682650793
 41
2.01528384279476
 42
50.0
 43
0.0
 44
0.0
 50
0.0
 51
0.0
 71
     0
 72
  1000
 73
     1
 74
     2
 75
     0
 76
     0
 77
     0
 78
     0
281
     0
 65
     1
110
0.0
120
0.0
130
0.0
111
1.0
121
0.0
131
0.0
112
0.0
122
1.0
132
0.0
 79
     0
146
0.0
  0
ENDTAB
  0
TABLE
  2
LTYPE
  5
24
330
0
100
AcDbSymbolTable
 70
     2
  0
LTYPE
  5
25
330
24
100
AcDbSymbolTableRecord
100
AcDbLinetypeTableRecord
  2
ByBlock
 70
     0
  3

 72
    65
 73
     0
 40
0.0
  0
LTYPE
  5
26
330
24
100
AcDbSymbolTableRecord
100
AcDbLinetypeTableRecord
  2
ByLayer
 70
     0
  3

 72
    65
 73
     0
 40
0.0
  0
LTYPE
  5
14
330
24
100
AcDbSymbolTableRecord
100
AcDbLinetypeTableRecord
  2
Continuous
 70
     0
  3
Solid line
 72
    65
 73
     0
 40
0.0
  0
LTYPE
  5
60
330
24
100
AcDbSymbolTableRecord
100
AcDbLinetypeTableRecord
  2
HIDDEN
 70
     0
  3
_ _ _ _ _ _ _ _ _ _ _ _ _ _ _ _ _ _ _ _ _ _ _
 72
    65
 73
     2
 40
0.375
 49
0.25
 74
     0
 49
-0.125
 74
     0
  0
ENDTAB
  0
TABLE
  2
LAYER
  5
1C
102
{ACAD_XDICTIONARY
360
1D
102
}
330
0
100
AcDbSymbolTable
 70
     1
  0
LAYER
  5
6
102
{ACAD_XDICTIONARY
360
7
102
}
330
1C
100
AcDbSymbolTableRecord
100
AcDbLayerTableRecord
  2
0
 70
     0
 62
     7
  6
Continuous
370
    -3
390
9
  0
ENDTAB
  0
TABLE
  2
STYLE
  5
21
330
0
100
AcDbSymbolTable
 70
     1
  0
STYLE
  5
22
330
21
100
AcDbSymbolTableRecord
100
AcDbTextStyleTableRecord
  2
Standard
 70
     0
 40
0.0
 41
1.0
 50
0.0
 71
     0
 42
0.2
  3
technic_.ttf
  4

1001
ACAD
1000
Technic
1071
      514
  0
ENDTAB
  0
TABLE
  2
VIEW
  5
27
330
0
100
AcDbSymbolTable
 70
     0
  0
ENDTAB
  0
TABLE
  2
UCS
  5
28
330
0
100
AcDbSymbolTable
 70
     0
  0
ENDTAB
  0
TABLE
  2
APPID
  5
2D
330
0
100
AcDbSymbolTable
 70
     2
  0
APPID
  5
13
330
2D
100
AcDbSymbolTableRecord
100
AcDbRegAppTableRecord
  2
ACAD
 70
     0
  0
APPID
  5
D6
330
2D
100
AcDbSymbolTableRecord
100
AcDbRegAppTableRecord
  2
AcDbAttr
 70
     0
  0
ENDTAB
  0
TABLE
  2
DIMSTYLE
  5
2E
330
0
100
AcDbSymbolTable
 70
     1
100
AcDbDimStyleTable
  0
DIMSTYLE
105
2F
330
2E
100
AcDbSymbolTableRecord
100
AcDbDimStyleTableRecord
  2
Standard
 70
     0
340
22
  0
ENDTAB
  0
TABLE
  2
BLOCK_RECORD
  5
1
330
0
100
AcDbSymbolTable
 70
     0
  0
BLOCK_RECORD
  5
2
102
{ACAD_XDICTIONARY
360
3
102
}
330
1
100
AcDbSymbolTableRecord
100
AcDbBlockTableRecord
  2
*Model_Space
340
16
  0
BLOCK_RECORD
  5
18
330
1
100
AcDbSymbolTableRecord
100
AcDbBlockTableRecord
  2
*Paper_Space
340
1B
  0
ENDTAB
  0
ENDSEC
  0
SECTION
  2
BLOCKS
  0
BLOCK
  5
5
330
2
100
AcDbEntity
  8
0
100
AcDbBlockBegin
  2
*Model_Space
 70
     0
 71
     0
 10
0.0
 20
0.0
 30
0.0
  3
*Model_Space
  1

  0
ENDBLK
  5
15
330
2
100
AcDbEntity
  8
0
100
AcDbBlockEnd
  0
BLOCK
  5
19
330
18
100
AcDbEntity
 67
     1
  8
0
100
AcDbBlockBegin
  2
*Paper_Space
 70
     0
 71
     0
 10
0.0
 20
0.0
 30
0.0
  3
*Paper_Space
  1

  0
ENDBLK
  5
1A
330
18
100
AcDbEntity
 67
     1
  8
0
100
AcDbBlockEnd
  0
ENDSEC
  0
SECTION
  2
ENTITIES
  0
LINE
  5
5F
330
2
100
AcDbEntity
  8
0
  6
HIDDEN
 62
   254
 48
4.0
100
AcDbLine
 10
-205.7843295774752
 20
19.94231703474213
 30
-0.0000000000000023
 11
-205.9715228472269
 21
19.94231518451122
 31
-0.0000000000000023
  0
LINE
  5
61
330
2
100
AcDbEntity
  8
0
  6
HIDDEN
 62
   254
 48
4.0
100
AcDbLine
 10
-205.9419857665991
 20
21.44231547653095
 30
-0.0000000000000023
 11
-206.4715327312944
 21
21.442310242453
 31
-0.0000000000000023
  0
LINE
  5
62
330
2
100
AcDbEntity
  8
0
  6
HIDDEN
 62
   254
 48
4.0
100
AcDbLine
 10
-205.9715228472269
 20
19.94231518451122
 30
-0.0000000000000023
 11
-205.9715228472268
 21
5.628985786551084
 31
-0.0000000000000023
  0
LINE
  5
63
330
2
100
AcDbEntity
  8
0
  6
HIDDEN
 62
   254
 48
4.0
100
AcDbLine
 10
-205.9715228472268
 20
4.128985786551084
 30
-0.0000000000000023
 11
-205.9715228472269
 21
2.703525709136244
 31
-0.0000000000000023
  0
LINE
  5
64
330
2
100
AcDbEntity
  8
0
  6
HIDDEN
 62
   254
 48
4.0
100
AcDbLine
 10
-207.4715228472269
 20
20.44231024250185
 30
-0.0000000000000023
 11
-207.4715228472269
 21
2.560813109465101
 31
-0.0000000000000023
  0
LINE
  5
65
330
2
100
AcDbEntity
  8
0
  6
HIDDEN
 62
   254
 48
4.0
100
AcDbLine
 10
-201.7922528842142
 20
5.628985786551084
 30
-0.0000000000000023
 11
-205.9715228472268
 21
5.628985786551084
 31
-0.0000000000000023
  0
LINE
  5
66
330
2
100
AcDbEntity
  8
0
  6
HIDDEN
 62
   254
 48
4.0
100
AcDbLine
 10
-201.8689594834428
 20
4.128985786551084
 30
-0.0000000000000023
 11
-205.9715228472269
 21
4.128985786551084
 31
-0.0000000000000023
  0
ARC
  5
67
330
2
100
AcDbEntity
  8
0
  6
HIDDEN
 62
   254
 48
4.0
100
AcDbCircle
 10
-206.4715228472269
 20
20.44231024250186
 30
-0.0000000000000023
 40
1.0
100
AcDbArc
 50
90.00056631535433
 51
180.0
  0
LINE
  5
68
330
2
100
AcDbEntity
  8
0
100
AcDbLine
 10
-148.134623048332
 20
23.74580947649822
 30
0.0
 11
-207.647623048332
 21
23.74580947649822
 31
0.0
  0
LINE
  5
69
330
2
100
AcDbEntity
  8
0
100
AcDbLine
 10
-148.8986230483321
 20
24.68330947649822
 30
0.0
 11
-206.8836230483321
 21
24.68330947649822
 31
0.0
  0
LINE
  5
6A
330
2
100
AcDbEntity
  8
0
100
AcDbLine
 10
-148.0786230483321
 20
5.995809476498224
 30
0.0
 11
-207.7036230483321
 21
5.995809476498224
 31
0.0
  0
LINE
  5
6B
330
2
100
AcDbEntity
  8
0
100
AcDbLine
 10
-150.507562742923
 20
11.24580947649822
 30
0.0
 11
-205.2746833537411
 21
11.24580947649822
 31
0.0
  0
LINE
  5
6C
330
2
100
AcDbEntity
  8
0
100
AcDbLine
 10
-148.0786230483321
 20
22.99580947649822
 30
0.0
 11
-148.0786230483321
 21
5.995809476498224
 31
0.0
  0
LINE
  5
6D
330
2
100
AcDbEntity
  8
0
100
AcDbLine
 10
-148.3361230483321
 20
24.12080947649822
 30
0.0
 11
-148.8986230483321
 21
24.68330947649822
 31
0.0
  0
LINE
  5
6E
330
2
100
AcDbEntity
  8
0
100
AcDbLine
 10
-148.1486230483321
 20
24.68330947649822
 30
0.0
 11
-148.0786230483321
 21
24.68330947649822
 31
0.0
  0
LINE
  5
6F
330
2
100
AcDbEntity
  8
0
100
AcDbLine
 10
-148.1486230483321
 20
24.68330947649822
 30
0.0
 11
-148.1486230483321
 21
23.86237386226543
 31
0.0
  0
LINE
  5
70
330
2
100
AcDbEntity
  8
0
100
AcDbLine
 10
-148.0786230483321
 20
24.68330947649822
 30
0.0
 11
-148.0786230483321
 21
23.85858697004672
 31
0.0
  0
LINE
  5
71
330
2
100
AcDbEntity
  8
0
100
AcDbLine
 10
-148.3361230483321
 20
24.12080947649822
 30
0.0
 11
-148.1486230483321
 21
24.12080947649822
 31
0.0
  0
LINE
  5
72
330
2
100
AcDbEntity
  8
0
100
AcDbLine
 10
-148.0786230483321
 20
22.99580947649822
 30
0.0
 11
-148.134623048332
 21
22.99580947649822
 31
0.0
  0
LINE
  5
73
330
2
100
AcDbEntity
  8
0
100
AcDbLine
 10
-148.134623048332
 20
23.74580947649822
 30
0.0
 11
-148.134623048332
 21
22.99580947649822
 31
0.0
  0
LINE
  5
74
330
2
100
AcDbEntity
  8
0
100
AcDbLine
 10
-207.7036230483321
 20
22.99580947649822
 30
0.0
 11
-207.7036230483321
 21
5.995809476498224
 31
0.0
  0
LINE
  5
75
330
2
100
AcDbEntity
  8
0
100
AcDbLine
 10
-207.4461230483321
 20
24.12080947649822
 30
0.0
 11
-206.8836230483321
 21
24.68330947649822
 31
0.0
  0
LINE
  5
76
330
2
100
AcDbEntity
  8
0
100
AcDbLine
 10
-207.6336230483321
 20
24.68330947649822
 30
0.0
 11
-207.7036230483321
 21
24.68330947649822
 31
0.0
  0
LINE
  5
77
330
2
100
AcDbEntity
  8
0
100
AcDbLine
 10
-207.6336230483321
 20
24.68330947649822
 30
0.0
 11
-207.6336230483321
 21
23.85714386944198
 31
0.0
  0
LINE
  5
78
330
2
100
AcDbEntity
  8
0
100
AcDbLine
 10
-207.7036230483321
 20
24.68330947649822
 30
0.0
 11
-207.7036230483321
 21
23.85858697004672
 31
0.0
  0
LINE
  5
79
330
2
100
AcDbEntity
  8
0
100
AcDbLine
 10
-207.4461230483321
 20
24.12080947649822
 30
0.0
 11
-207.6336230483321
 21
24.12080947649822
 31
0.0
  0
LINE
  5
7A
330
2
100
AcDbEntity
  8
0
100
AcDbLine
 10
-207.647623048332
 20
22.99580947649822
 30
0.0
 11
-207.7036230483321
 21
22.99580947649822
 31
0.0
  0
LINE
  5
7B
330
2
100
AcDbEntity
  8
0
100
AcDbLine
 10
-207.647623048332
 20
23.74580947649822
 30
0.0
 11
-207.647623048332
 21
22.99580947649822
 31
0.0
  0
LINE
  5
7C
330
2
100
AcDbEntity
  8
0
  6
HIDDEN
 62
   254
 48
4.0
100
AcDbLine
 10
-198.125902126696
 20
6.678966122930788
 30
0.0
 11
-163.1236584474555
 21
7.901271406147551
 31
0.0
  0
LINE
  5
7D
330
2
100
AcDbEntity
  8
0
  6
HIDDEN
 62
   254
 48
4.0
100
AcDbLine
 10
-198.1171772525204
 20
6.429118416176014
 30
0.0
 11
-163.1149335732799
 21
7.651423699392776
 31
0.0
  0
LINE
  5
7E
330
2
100
AcDbEntity
  8
0
  6
HIDDEN
 62
   254
 48
4.0
100
AcDbLine
 10
-199.9051230483321
 20
7.433309476498224
 30
0.0
 11
-199.9051230483321
 21
5.377309476498226
 31
0.0
  0
LINE
  5
7F
330
2
100
AcDbEntity
  8
0
  6
HIDDEN
 62
   254
 48
4.0
100
AcDbLine
 10
-205.8486253065483
 20
22.94574309237056
 30
0.0
 11
-204.3569397905122
 21
8.753303441717364
 31
0.0
  0
LINE
  5
80
330
2
100
AcDbEntity
  8
0
  6
HIDDEN
 62
   254
 48
4.0
100
AcDbLine
 10
-206.0972557803904
 20
22.91961097655364
 30
0.0
 11
-204.6055702643542
 21
8.72717132590045
 31
0.0
  0
ARC
  5
81
330
2
100
AcDbEntity
  8
0
  6
HIDDEN
 62
   254
 48
4.0
100
AcDbCircle
 10
-202.0496489932578
 20
8.995809476498316
 30
0.0
 40
2.32
100
AcDbArc
 50
185.9999999999997
 51
270.0
  0
ARC
  5
82
330
2
100
AcDbEntity
  8
0
  6
HIDDEN
 62
   254
 48
4.0
100
AcDbCircle
 10
-202.0496489932578
 20
8.995809476498316
 30
0.0
 40
2.57
100
AcDbArc
 50
185.9999999999997
 51
270.0
  0
LINE
  5
83
330
2
100
AcDbEntity
  8
0
  6
HIDDEN
 62
   254
 48
4.0
100
AcDbLine
 10
-200.9988730483321
 20
6.37730947649851
 30
0.0
 11
-198.8072309813818
 21
6.377309476497942
 31
0.0
  0
LINE
  5
84
330
2
100
AcDbEntity
  8
0
  6
HIDDEN
 62
   254
 48
4.0
100
AcDbLine
 10
-200.9988730483321
 20
6.12730947649851
 30
0.0
 11
-198.8072309813818
 21
6.127309476497942
 31
0.0
  0
LINE
  5
85
330
2
100
AcDbEntity
  8
0
  6
HIDDEN
 62
   254
 48
4.0
100
AcDbLine
 10
-201.1982903641524
 20
6.433303753064301
 30
0.0
 11
-201.4970142465147
 21
6.619967151835798
 31
0.0
  0
LINE
  5
86
330
2
100
AcDbEntity
  8
0
  6
HIDDEN
 62
   254
 48
4.0
100
AcDbLine
 10
-201.3341746145102
 20
6.223419055679525
 30
0.0
 11
-201.629494062573
 21
6.40795512779669
 31
0.0
  0
LINE
  5
87
330
2
100
AcDbEntity
  8
0
  6
HIDDEN
 62
   254
 48
4.0
100
AcDbLine
 10
-201.6917595761203
 20
6.675809476498323
 30
0.0
 11
-202.0496489932578
 21
6.675809476498323
 31
0.0
  0
LINE
  5
88
330
2
100
AcDbEntity
  8
0
  6
HIDDEN
 62
   254
 48
4.0
100
AcDbLine
 10
-201.6917595761203
 20
6.425809476498323
 30
0.0
 11
-202.0496489932578
 21
6.425809476498323
 31
0.0
  0
ARC
  5
89
330
2
100
AcDbEntity
  8
0
  6
HIDDEN
 62
   254
 48
4.0
100
AcDbCircle
 10
-201.6917595761203
 20
6.308309476498323
 30
0.0
 40
0.3675
100
AcDbArc
 50
58.00000000000225
 51
90.0
  0
ARC
  5
8A
330
2
100
AcDbEntity
  8
0
  6
HIDDEN
 62
   254
 48
4.0
100
AcDbCircle
 10
-201.6917595761203
 20
6.308309476498323
 30
0.0
 40
0.1175
100
AcDbArc
 50
58.00000000000225
 51
90.0
  0
ARC
  5
8B
330
2
100
AcDbEntity
  8
0
  6
HIDDEN
 62
   254
 48
4.0
100
AcDbCircle
 10
-200.9990006798828
 20
6.759809476498511
 30
0.0
 40
0.3825
100
AcDbArc
 50
238.0000000000023
 51
269.9999999999837
  0
ARC
  5
8C
330
2
100
AcDbEntity
  8
0
  6
HIDDEN
 62
   254
 48
4.0
100
AcDbCircle
 10
-200.9990006798828
 20
6.759809476498511
 30
0.0
 40
0.6325000000000001
100
AcDbArc
 50
238.0000000000023
 51
269.9999999999837
  0
LINE
  5
8D
330
2
100
AcDbEntity
  8
0
  6
HIDDEN
 62
   254
 48
4.0
100
AcDbLine
 10
-200.9988730483321
 20
6.377309476498514
 30
0.0
 11
-200.9988730483321
 21
6.127309476498507
 31
0.0
  0
LINE
  5
8E
330
2
100
AcDbEntity
  8
0
  6
HIDDEN
 62
   254
 48
4.0
100
AcDbLine
 10
-201.0030151152824
 20
6.37730947649851
 30
0.0
 11
-200.9988730483321
 21
6.37730947649851
 31
0.0
  0
ARC
  5
8F
330
2
100
AcDbEntity
  8
0
  6
HIDDEN
 62
   254
 48
4.0
100
AcDbCircle
 10
-198.8112454167823
 20
6.759809476497942
 30
0.0
 40
0.3825
100
AcDbArc
 50
269.9999999999837
 51
301.9999999999961
  0
ARC
  5
90
330
2
100
AcDbEntity
  8
0
  6
HIDDEN
 62
   254
 48
4.0
100
AcDbCircle
 10
-198.8112454167823
 20
6.759809476497942
 30
0.0
 40
0.6325000000000001
100
AcDbArc
 50
269.9999999999837
 51
301.9999999999961
  0
LINE
  5
91
330
2
100
AcDbEntity
  8
0
  6
HIDDEN
 62
   254
 48
4.0
100
AcDbLine
 10
-198.8113730483321
 20
6.377309476497938
 30
0.0
 11
-198.8113730483323
 21
6.127309476497945
 31
0.0
  0
ARC
  5
92
330
2
100
AcDbEntity
  8
0
  6
HIDDEN
 62
   254
 48
4.0
100
AcDbCircle
 10
-198.1130765616578
 20
6.311689994001277
 30
0.0
 40
0.3675
100
AcDbArc
 50
91.99999999999872
 51
121.9999999999962
  0
ARC
  5
93
330
2
100
AcDbEntity
  8
0
  6
HIDDEN
 62
   254
 48
4.0
100
AcDbCircle
 10
-198.1130765616578
 20
6.311689994001277
 30
0.0
 40
0.1175
100
AcDbArc
 50
91.99999999999872
 51
121.9999999999962
  0
LINE
  5
94
330
2
100
AcDbEntity
  8
0
  6
HIDDEN
 62
   254
 48
4.0
100
AcDbLine
 10
-198.6119557325118
 20
6.433303753064301
 30
0.0
 11
-198.3078218912635
 21
6.623347669338777
 31
0.0
  0
LINE
  5
95
330
2
100
AcDbEntity
  8
0
  6
HIDDEN
 62
   254
 48
4.0
100
AcDbLine
 10
-198.4794759164535
 20
6.221291729025186
 30
0.0
 11
-198.1753420752052
 21
6.411335645299662
 31
0.0
  0
LINE
  5
96
330
2
100
AcDbEntity
  8
0
  6
HIDDEN
 62
   254
 48
4.0
100
AcDbLine
 10
-158.1375091291222
 20
13.19877010975777
 30
0.0
 11
-159.6076076305971
 21
10.18462150468371
 31
0.0
  0
LINE
  5
97
330
2
100
AcDbEntity
  8
0
  6
HIDDEN
 62
   254
 48
4.0
100
AcDbLine
 10
-158.5990468440379
 20
11.68218455165601
 30
0.0
 11
-159.3829091190223
 21
10.07502871798643
 31
0.0
  0
ARC
  5
98
330
2
100
AcDbEntity
  8
0
  6
HIDDEN
 62
   254
 48
4.0
100
AcDbCircle
 10
-163.2656993990347
 20
11.96879207211526
 30
0.0
 40
4.07
100
AcDbArc
 50
271.9999999999988
 51
334.0000000000003
  0
ARC
  5
99
330
2
100
AcDbEntity
  8
0
  6
HIDDEN
 62
   254
 48
4.0
100
AcDbCircle
 10
-163.2656993990347
 20
11.96879207211526
 30
0.0
 40
4.32
100
AcDbArc
 50
271.9999999999988
 51
334.0000000000003
  0
ARC
  5
9A
330
2
100
AcDbEntity
  8
0
  6
HIDDEN
 62
   254
 48
4.0
100
AcDbCircle
 10
-149.2124842493714
 20
8.845744622142178
 30
0.0
 40
9.93
100
AcDbArc
 50
142.2841476051071
 51
154.0000000000003
  0
ARC
  5
9B
330
2
100
AcDbEntity
  8
0
  6
HIDDEN
 62
   254
 48
4.0
100
AcDbCircle
 10
-177.9051230483321
 20
282.2997508987862
 30
0.0
 40
260.0
100
AcDbArc
 50
264.3602089186131
 51
275.6397910813869
  0
LINE
  5
9C
330
2
100
AcDbEntity
  8
0
  6
HIDDEN
 62
   254
 48
4.0
100
AcDbLine
 10
-150.8299979714656
 20
23.55830947649822
 30
0.0
 11
-206.2064230008092
 21
23.55830947649822
 31
0.0
  0
ARC
  5
9D
330
2
100
AcDbEntity
  8
0
  6
HIDDEN
 62
   254
 48
4.0
100
AcDbCircle
 10
-206.5123707061062
 20
22.88870302701707
 30
0.0
 40
0.6661918075822695
100
AcDbArc
 50
4.911740621827163
 51
83.86520398691928
  0
ARC
  5
9E
330
2
100
AcDbEntity
  8
0
  6
HIDDEN
 62
   254
 48
4.0
100
AcDbCircle
 10
-206.5123707061062
 20
22.88870302701707
 30
0.0
 40
0.4161918075822695
100
AcDbArc
 50
4.911740621827163
 51
83.86520398691928
  0
ARC
  5
9F
330
2
100
AcDbEntity
  8
0
  6
HIDDEN
 62
   254
 48
4.0
100
AcDbCircle
 10
-206.5123683235575
 20
22.88871730022246
 30
0.0
 40
0.7361767607316047
100
AcDbArc
 50
65.44372632904171
 51
83.8890040858474
  0
LINE
  5
A0
330
2
100
AcDbEntity
  8
0
  6
HIDDEN
 62
   254
 48
4.0
100
AcDbLine
 10
-207.5286174366572
 20
23.66317164350356
 30
0.0
 11
-206.4411761745726
 21
23.55107970472353
 31
0.0
  0
LINE
  5
A1
330
2
100
AcDbEntity
  8
0
  6
HIDDEN
 62
   254
 48
4.0
100
AcDbLine
 10
-207.5542512678433
 20
23.41448930255688
 30
0.0
 11
-206.4668100057587
 21
23.30239736377684
 31
0.0
  0
LINE
  5
A2
330
2
100
AcDbEntity
  8
0
  6
HIDDEN
 62
   254
 48
4.0
100
AcDbLine
 10
-207.5214399639251
 20
23.73280269896864
 30
0.0
 11
-206.4339987018405
 21
23.6207107601886
 31
0.0
  0
ARC
  5
A3
330
2
100
AcDbEntity
  8
0
  6
HIDDEN
 62
   254
 48
4.0
100
AcDbCircle
 10
-168.1977876301763
 20
23.52764693549387
 30
0.0
 40
14.07
100
AcDbArc
 50
322.2841476051071
 51
348.6342451668343
  0
ARC
  5
A4
330
2
100
AcDbEntity
  8
0
  6
HIDDEN
 62
   254
 48
4.0
100
AcDbCircle
 10
-168.1977876301763
 20
23.52764693549387
 30
0.0
 40
14.32
100
AcDbArc
 50
334.4001451668784
 51
348.6342451668343
  0
ARC
  5
A5
330
2
100
AcDbEntity
  8
0
  6
HIDDEN
 62
   254
 48
4.0
100
AcDbCircle
 10
-151.0205557948048
 20
19.96626679927142
 30
0.0
 40
3.5
100
AcDbArc
 50
93.99999999999974
 51
153.0998904231921
  0
ARC
  5
A6
330
2
100
AcDbEntity
  8
0
  6
HIDDEN
 62
   254
 48
4.0
100
AcDbCircle
 10
-151.0205557948048
 20
19.96626679927142
 30
0.0
 40
3.25
100
AcDbArc
 50
93.99999999999974
 51
153.0998904231921
  0
ARC
  5
A7
330
2
100
AcDbEntity
  8
0
  6
HIDDEN
 62
   254
 48
4.0
100
AcDbCircle
 10
-150.9723504839877
 20
20.06510233322431
 30
0.0
 40
3.5
100
AcDbArc
 50
154.9001095768134
 51
168.6342451668347
  0
ARC
  5
A8
330
2
100
AcDbEntity
  8
0
  6
HIDDEN
 62
   254
 48
4.0
100
AcDbCircle
 10
-150.9723504839877
 20
20.06510233322431
 30
0.0
 40
3.25
100
AcDbArc
 50
154.9001095768134
 51
168.6342451668347
  0
LINE
  5
A9
330
2
100
AcDbEntity
  8
0
  6
HIDDEN
 62
   254
 48
4.0
100
AcDbLine
 10
-148.260020535952
 20
23.66784887246475
 30
0.0
 11
-151.2647034529092
 21
23.45774097518081
 31
0.0
  0
LINE
  5
AA
330
2
100
AcDbEntity
  8
0
  6
HIDDEN
 62
   254
 48
4.0
100
AcDbLine
 10
-148.2425814175159
 20
23.4184578598998
 30
0.0
 11
-151.2472643344732
 21
23.20834996261585
 31
0.0
  0
LINE
  5
AB
330
2
100
AcDbEntity
  8
0
  6
HIDDEN
 62
   254
 48
4.0
100
AcDbLine
 10
-148.264903489114
 20
23.73767835598295
 30
0.0
 11
-150.8299979714656
 21
23.55830947649822
 31
0.0
  0
ARC
  5
AC
330
2
100
AcDbEntity
  8
0
100
AcDbCircle
 10
-207.5086230483321
 20
23.85714386944198
 30
0.0
 40
0.125
100
AcDbArc
 50
180.0
 51
242.9582080830483
  0
ARC
  5
AD
330
2
100
AcDbEntity
  8
0
  6
HIDDEN
 62
   254
 48
4.0
100
AcDbCircle
 10
-207.5086230483321
 20
23.85714386944198
 30
0.0
 40
0.125
100
AcDbArc
 50
242.9582080830483
 51
264.1148154479016
  0
ARC
  5
AE
330
2
100
AcDbEntity
  8
0
100
AcDbCircle
 10
-207.5086230483321
 20
23.85714386944198
 30
0.0
 40
0.195
100
AcDbArc
 50
180.0
 51
224.5351341562681
  0
ARC
  5
AF
330
2
100
AcDbEntity
  8
0
  6
HIDDEN
 62
   254
 48
4.0
100
AcDbCircle
 10
-207.5086230483321
 20
23.85714386944198
 30
0.0
 40
0.195
100
AcDbArc
 50
224.5351341562716
 51
264.1148154479016
  0
ARC
  5
B0
330
2
100
AcDbEntity
  8
0
  6
HIDDEN
 62
   254
 48
4.0
100
AcDbCircle
 10
-207.5086230483321
 20
23.85714386944198
 30
0.0
 40
0.445
100
AcDbArc
 50
251.7985143578855
 51
264.1148154479016
  0
ARC
  5
B1
330
2
100
AcDbEntity
  8
0
  6
HIDDEN
 62
   254
 48
4.0
100
AcDbCircle
 10
-148.2736230483321
 20
23.86237386226543
 30
0.0
 40
0.125
100
AcDbArc
 50
273.9999999999998
 51
291.1696721309276
  0
ARC
  5
B2
330
2
100
AcDbEntity
  8
0
  6
HIDDEN
 62
   254
 48
4.0
100
AcDbCircle
 10
-148.2736230483321
 20
23.86237386226543
 30
0.0
 40
0.125
100
AcDbArc
 50
291.1696721309276
 51
0.0
  0
ARC
  5
B3
330
2
100
AcDbEntity
  8
0
  6
HIDDEN
 62
   254
 48
4.0
100
AcDbCircle
 10
-148.2736230483321
 20
23.86237386226543
 30
0.0
 40
0.195
100
AcDbArc
 50
273.9999999999998
 51
307.2019056487536
  0
ARC
  5
B4
330
2
100
AcDbEntity
  8
0
  6
HIDDEN
 62
   254
 48
4.0
100
AcDbCircle
 10
-148.2736230483321
 20
23.86237386226543
 30
0.0
 40
0.445
100
AcDbArc
 50
273.9999999999998
 51
288.2014856421335
  0
ARC
  5
B5
330
2
100
AcDbEntity
  8
0
100
AcDbCircle
 10
-148.2736230483321
 20
23.86237386226543
 30
0.0
 40
0.195
100
AcDbArc
 50
315.4648658437764
 51
0.0
  0
LINE
  5
B6
330
2
100
AcDbEntity
  8
0
  6
HIDDEN
 62
   254
 48
4.0
100
AcDbLine
 10
-206.2674726891218
 20
20.66861511359481
 30
0.0
 11
-205.2172575676129
 21
20.77899717080547
 31
0.0
  0
LINE
  5
B7
330
2
100
AcDbEntity
  8
0
  6
HIDDEN
 62
   254
 48
4.0
100
AcDbLine
 10
-157.7951071371217
 20
11.81078595568006
 30
0.0
 11
-155.2685131077616
 21
16.07996217901629
 31
0.0
  0
LINE
  5
B8
330
2
100
AcDbEntity
  8
0
  6
HIDDEN
 62
   254
 48
4.0
100
AcDbLine
 10
-157.4852825234388
 20
12.14973261817833
 30
0.0
 11
-155.1876183905758
 21
16.03208687503352
 31
0.0
  0
LINE
  5
B9
330
2
100
AcDbEntity
  8
0
  6
HIDDEN
 62
   254
 48
4.0
100
AcDbLine
 10
-158.2470203963388
 20
11.78773728938885
 30
0.0
 11
-158.1375805976761
 21
11.72296836737433
 31
0.0
  0
ARC
  5
BA
330
2
100
AcDbEntity
  8
0
  6
HIDDEN
 62
   254
 48
4.0
100
AcDbCircle
 10
-158.0102526615518
 20
11.93811389180444
 30
0.0
 40
0.25
100
AcDbArc
 50
239.3820037424196
 51
329.3820037424202
  0
LINE
  5
BB
330
2
100
AcDbEntity
  8
0
  6
HIDDEN
 62
   254
 48
4.0
100
AcDbLine
 10
-155.3235717197091
 20
17.02951328599839
 30
0.0
 11
-155.207845801617
 21
16.42927476603463
 31
0.0
  0
ARC
  5
BC
330
2
100
AcDbEntity
  8
0
  6
HIDDEN
 62
   254
 48
4.0
100
AcDbCircle
 10
-155.6988041566218
 20
16.33461805126504
 30
0.0
 40
0.5
100
AcDbArc
 50
329.3820037424202
 51
10.91271945162079
  0
LINE
  5
BD
330
2
100
AcDbEntity
  8
0
  6
HIDDEN
 62
   254
 48
4.0
100
AcDbLine
 10
-157.6501422205654
 20
12.05573261817833
 30
0.0
 11
-149.6909382089314
 21
12.05573261817833
 31
0.0
  0
LINE
  5
BE
330
2
100
AcDbEntity
  8
0
  6
HIDDEN
 62
   254
 48
4.0
100
AcDbLine
 10
-157.4852825234388
 20
12.14973261817833
 30
0.0
 11
-149.6909382089313
 21
12.14973261817833
 31
0.0
  0
LINE
  5
BF
330
2
100
AcDbEntity
  8
0
  6
HIDDEN
 62
   254
 48
4.0
100
AcDbLine
 10
-155.1876183905758
 20
16.03208687503352
 30
0.0
 11
-155.2685131077616
 21
16.07996217901629
 31
0.0
  0
LINE
  5
C0
330
2
100
AcDbEntity
  8
0
  6
HIDDEN
 62
   254
 48
4.0
100
AcDbLine
 10
-149.6909382089313
 20
12.14973261817833
 30
0.0
 11
-149.6909382089314
 21
12.05573261817833
 31
0.0
  0
CIRCLE
  5
C1
330
2
100
AcDbEntity
  8
0
  6
HIDDEN
 62
   254
 48
4.0
100
AcDbCircle
 10
-151.7472713880302
 20
15.4438994196815
 30
0.0
 40
2.717872640144492
  0
ARC
  5
C2
330
2
100
AcDbEntity
  8
0
  6
HIDDEN
 62
   254
 48
4.0
100
AcDbCircle
 10
-154.8326133647043
 20
17.12417000076799
 30
0.0
 40
0.5
100
AcDbArc
 50
154.4001451668787
 51
190.9127194516204
  0
ARC
  5
C3
330
2
100
AcDbEntity
  8
0
  6
HIDDEN
 62
   254
 48
4.0
100
AcDbCircle
 10
-158.3743483324631
 20
11.57259176495874
 30
0.0
 40
0.25
100
AcDbArc
 50
59.38200374241848
 51
153.9999999999996
  0
ATTDEF
  5
C4
330
2
100
AcDbEntity
  8
0
100
AcDbText
 10
-177.891123048332
 20
23.24580947649822
 30
0.0
 40
0.5
  1
AMERICAN STANDARD
 11
-177.891123048332
 21
23.74580947649822
 31
0.0
100
AcDbAttributeDefinition
  3

  2
BRAND
 70
     9
 74
     3
1001
AcDbAttr
1070
     0
1070
     1
  0
ATTDEF
  5
C5
330
2
100
AcDbEntity
  8
0
100
AcDbText
 10
-177.891123048332
 20
22.41247614316491
 30
0.0
 40
0.5
  1
2460
 11
-177.891123048332
 21
22.91247614316491
 31
0.0
100
AcDbAttributeDefinition
  3

  2
FIXTURE-NUMBER
 70
     9
 74
     3
1001
AcDbAttr
1070
     0
1070
     1
  0
ATTDEF
  5
C6
330
2
100
AcDbEntity
  8
0
100
AcDbText
 10
-177.891123048332
 20
21.57914280983157
 30
0.0
 40
0.5
  1
CAMBRIDGE 5' LHO
 11
-177.891123048332
 21
22.07914280983157
 31
0.0
100
AcDbAttributeDefinition
  3

  2
PRODUCT-NAME
 70
     9
 74
     3
1001
AcDbAttr
1070
     0
1070
     1
  0
ATTDEF
  5
C7
330
2
100
AcDbEntity
  8
0
100
AcDbText
 10
-177.891123048332
 20
20.74580947649822
 30
0.0
 40
0.5
  1
ENAMELED STEEL w/AMERICAST
 11
-177.891123048332
 21
21.24580947649822
 31
0.0
100
AcDbAttributeDefinition
  3

  2
MATERIAL
 70
     9
 74
     3
1001
AcDbAttr
1070
     0
1070
     1
  0
ENDSEC
  0
SECTION
  2
OBJECTS
  0
DICTIONARY
  5
B
330
0
100
AcDbDictionary
281
     1
  3
ACAD_COLOR
350
36
  3
ACAD_GROUP
350
31
  3
ACAD_LAYOUT
350
17
  3
ACAD_MATERIAL
350
D
  3
ACAD_MLINESTYLE
350
32
  3
ACAD_PLOTSETTINGS
350
33
  3
ACAD_PLOTSTYLENAME
350
A
  3
ACAD_SCALELIST
350
37
  3
ACAD_TABLESTYLE
350
38
  3
ACAD_VISUALSTYLE
350
2C
  3
ACDB_RECOMPOSE_DATA
350
CB
  3
ACDBHEADERROUNDTRIPXREC
350
E1
  3
AcDbVariableDictionary
350
D7
  0
DICTIONARY
  5
1D
330
1C
100
AcDbDictionary
280
     1
281
     1
  3
ACAD_LAYERFILTERS
360
1E
  3
ACAD_LAYERSTATES
360
1F
  3
ACLYDICTIONARY
360
20
  0
DICTIONARY
  5
7
330
6
100
AcDbDictionary
280
     1
281
     1
  3
ADSK_XREC_LAYER_RECONCILED
360
8
  0
DICTIONARY
  5
3
330
2
100
AcDbDictionary
280
     1
281
     1
  3
ACAD_SORTENTS
360
C8
  0
DICTIONARY
  5
36
102
{ACAD_REACTORS
330
B
102
}
330
B
100
AcDbDictionary
281
     1
  0
DICTIONARY
  5
31
102
{ACAD_REACTORS
330
B
102
}
330
B
100
AcDbDictionary
281
     1
  0
DICTIONARY
  5
17
102
{ACAD_REACTORS
330
B
102
}
330
B
100
AcDbDictionary
281
     1
  3
Layout1
350
1B
  3
Model
350
16
  0
DICTIONARY
  5
D
102
{ACAD_REACTORS
330
B
102
}
330
B
100
AcDbDictionary
281
     1
  3
ByBlock
350
35
  3
ByLayer
350
34
  3
Global
350
C
  0
DICTIONARY
  5
32
102
{ACAD_REACTORS
330
B
102
}
330
B
100
AcDbDictionary
281
     1
  3
Standard
350
39
  0
DICTIONARY
  5
33
102
{ACAD_REACTORS
330
B
102
}
330
B
100
AcDbDictionary
281
     1
  0
ACDBDICTIONARYWDFLT
  5
A
102
{ACAD_REACTORS
330
B
102
}
330
B
100
AcDbDictionary
281
     1
  3
Normal
350
9
100
AcDbDictionaryWithDefault
340
9
  0
DICTIONARY
  5
37
102
{ACAD_REACTORS
330
B
102
}
330
B
100
AcDbDictionary
281
     1
  3
A0
350
3E
  3
A1
350
3F
  3
A2
350
40
  3
A3
350
41
  3
A4
350
42
  3
A5
350
43
  3
A6
350
44
  3
A7
350
45
  3
A8
350
46
  3
A9
350
47
  3
B0
350
48
  3
B1
350
49
  3
B2
350
4A
  3
B3
350
4B
  3
B4
350
4C
  3
B5
350
4D
  3
B6
350
4E
  3
B7
350
4F
  3
B8
350
50
  3
B9
350
51
  3
C0
350
52
  3
C1
350
53
  3
C2
350
54
  3
C3
350
55
  3
C4
350
56
  3
C5
350
57
  3
C6
350
58
  3
C7
350
59
  3
C8
350
5A
  3
C9
350
5B
  3
D0
350
5C
  3
D1
350
5D
  3
D2
350
5E
  0
DICTIONARY
  5
38
102
{ACAD_REACTORS
330
B
102
}
330
B
100
AcDbDictionary
281
     1
  3
Standard
350
3A
  0
DICTIONARY
  5
2C
102
{ACAD_REACTORS
330
B
102
}
330
B
100
AcDbDictionary
281
     1
  3
2dWireframe
350
2B
  3
3dWireframe
350
3D
  3
Realistic
350
3C
  0
XRECORD
  5
CB
102
{ACAD_REACTORS
330
B
102
}
330
B
100
AcDbXrecord
280
     1
 90
        1
330
3A
  0
DICTIONARY
  5
E1
102
{ACAD_REACTORS
330
B
102
}
330
B
100
AcDbDictionary
281
     1
  3
COLORDICT
350
E2
  3
MATERIALDICT
350
E3
  0
DICTIONARY
  5
D7
102
{ACAD_REACTORS
330
B
102
}
330
B
100
AcDbDictionary
281
     1
  3
CANNOSCALE
350
DB
  3
CMLEADERSTYLE
350
D9
  3
CTABLESTYLE
350
D8
  3
DIMASSOC
350
E0
  3
HIDETEXT
350
DF
  3
LIGHTINGUNITS
350
DC
  3
MSLTSCALE
350
DA
  0
DICTIONARY
  5
1E
102
{ACAD_REACTORS
330
1D
102
}
330
1D
100
AcDbDictionary
281
     1
  0
DICTIONARY
  5
1F
102
{ACAD_REACTORS
330
1D
102
}
330
1D
100
AcDbDictionary
281
     1
  0
DICTIONARY
  5
20
102
{ACAD_REACTORS
330
1D
102
}
330
1D
100
AcDbDictionary
281
     1
1001
ACAD
1000
<All
  0
XRECORD
  5
8
102
{ACAD_REACTORS
330
7
102
}
330
7
100
AcDbXrecord
280
     1
290
     1
  0
SORTENTSTABLE
  5
C8
102
{ACAD_REACTORS
330
3
102
}
330
3
100
AcDbSortentsTable
330
2
331
B6
  5
BA
331
B7
  5
BB
331
B8
  5
BC
331
B9
  5
BD
331
BA
  5
BE
331
BB
  5
BF
331
BC
  5
C0
331
BD
  5
C1
331
BE
  5
C2
331
BF
  5
C3
331
C0
  5
C4
331
C1
  5
C5
331
C2
  5
C6
331
C3
  5
C7
331
C4
  5
B6
331
C5
  5
B9
331
C6
  5
B8
331
C7
  5
B7
  0
LAYOUT
  5
1B
102
{ACAD_REACTORS
330
17
102
}
330
17
100
AcDbPlotSettings
  1

  2
None
  4

  6

 40
0.0
 41
0.0
 42
0.0
 43
0.0
 44
0.0
 45
0.0
 46
0.0
 47
0.0
 48
0.0
 49
0.0
140
0.0
141
0.0
142
1.0
143
1.0
 70
   688
 72
     0
 73
     0
 74
     5
  7

 75
    16
147
1.0
148
0.0
149
0.0
100
AcDbLayout
  1
Layout1
 70
     1
 71
     1
 10
0.0
 20
0.0
 11
12.0
 21
9.0
 12
0.0
 22
0.0
 32
0.0
 14
0.0
 24
0.0
 34
0.0
 15
0.0
 25
0.0
 35
0.0
146
0.0
 13
0.0
 23
0.0
 33
0.0
 16
1.0
 26
0.0
 36
0.0
 17
0.0
 27
1.0
 37
0.0
 76
     0
330
18
  0
LAYOUT
  5
16
102
{ACAD_REACTORS
330
17
102
}
330
17
100
AcDbPlotSettings
  1

  2
none_device
  4
ANSI_A_(8.50_x_11.00_Inches)
  6

 40
6.349999904632568
 41
19.04999923706055
 42
6.350006103515625
 43
19.04998779296875
 44
215.8999938964844
 45
279.3999938964844
 46
0.0
 47
0.0
 48
0.0
 49
0.0
140
0.0
141
0.0
142
1.0
143
2.584895464708374
 70
 11952
 72
     0
 73
     1
 74
     0
  7

 75
     0
147
0.3868628397755418
148
0.0
149
0.0
100
AcDbLayout
  1
Model
 70
     1
 71
     0
 10
0.0
 20
0.0
 11
12.0
 21
9.0
 12
0.0
 22
0.0
 32
0.0
 14
0.0
 24
0.0
 34
0.0
 15
0.0
 25
0.0
 35
0.0
146
0.0
 13
0.0
 23
0.0
 33
0.0
 16
1.0
 26
0.0
 36
0.0
 17
0.0
 27
1.0
 37
0.0
 76
     0
330
2
  0
MATERIAL
  5
35
102
{ACAD_REACTORS
330
D
102
}
102
{ACAD_XDICTIONARY
360
D3
102
}
330
D
100
AcDbMaterial
  1
ByBlock
 73
     2
 78
     2
172
     2
176
     2
270
     2
273
     0
274
     2
  0
MATERIAL
  5
34
102
{ACAD_REACTORS
330
D
102
}
102
{ACAD_XDICTIONARY
360
D1
102
}
330
D
100
AcDbMaterial
  1
ByLayer
 73
     2
 78
     2
172
     2
176
     2
270
     2
273
     0
274
     2
  0
MATERIAL
  5
C
102
{ACAD_REACTORS
330
D
102
}
102
{ACAD_XDICTIONARY
360
E
102
}
330
D
100
AcDbMaterial
  1
Global
 73
     2
 43
0.0208000000566244
 43
0.0
 43
0.0
 43
0.0
 43
0.0
 43
0.0208000000566244
 43
0.0
 43
0.0
 43
0.0
 43
0.0
 43
1.0
 43
0.0
 43
0.0
 43
0.0
 43
0.0
 43
1.0
 78
     2
172
     2
 49
0.0208000000566244
 49
0.0
 49
0.0
 49
0.0
 49
0.0
 49
0.0208000000566244
 49
0.0
 49
0.0
 49
0.0
 49
0.0
 49
1.0
 49
0.0
 49
0.0
 49
0.0
 49
0.0
 49
1.0
176
     2
142
0.0208000000566244
142
0.0
142
0.0
142
0.0
142
0.0
142
0.0208000000566244
142
0.0
142
0.0
142
0.0
142
0.0
142
1.0
142
0.0
142
0.0
142
0.0
142
0.0
142
1.0
270
     2
144
0.0208000000566244
144
0.0
144
0.0
144
0.0
144
0.0
144
0.0208000000566244
144
0.0
144
0.0
144
0.0
144
0.0
144
1.0
144
0.0
144
0.0
144
0.0
144
0.0
144
1.0
273
     0
274
     2
1001
ACAD
1070
    -1
1070
     3
1070
     0
1000

1071
        0
1070
     0
  0
MLINESTYLE
  5
39
102
{ACAD_REACTORS
330
32
102
}
330
32
100
AcDbMlineStyle
  2
STANDARD
 70
     0
  3

 62
   256
 51
90.0
 52
90.0
 71
     2
 49
0.5
 62
   256
  6
BYLAYER
 49
-0.5
 62
   256
  6
BYLAYER
  0
ACDBPLACEHOLDER
  5
9
102
{ACAD_REACTORS
330
A
102
}
330
A
  0
ACAD_PROXY_OBJECT
  5
3E
102
{ACAD_REACTORS
330
37
102
}
330
37
100
AcDbProxyObject
 90
      499
 91
      507
 95
   983063
 70
     0
 93
       49
310
904313A3100580
  0
ACAD_PROXY_OBJECT
  5
3F
102
{ACAD_REACTORS
330
37
102
}
330
37
100
AcDbProxyObject
 90
      499
 91
      507
 95
   983063
 70
     0
 93
      113
310
904313A32004000000000000004000
  0
ACAD_PROXY_OBJECT
  5
40
102
{ACAD_REACTORS
330
37
102
}
330
37
100
AcDbProxyObject
 90
      499
 91
      507
 95
   983063
 70
     0
 93
      113
310
904313A34004000000000000104000
  0
ACAD_PROXY_OBJECT
  5
41
102
{ACAD_REACTORS
330
37
102
}
330
37
100
AcDbProxyObject
 90
      499
 91
      507
 95
   983063
 70
     0
 93
      113
310
904313A35004000000000000144000
  0
ACAD_PROXY_OBJECT
  5
42
102
{ACAD_REACTORS
330
37
102
}
330
37
100
AcDbProxyObject
 90
      499
 91
      507
 95
   983063
 70
     0
 93
      113
310
904313A38004000000000000204000
  0
ACAD_PROXY_OBJECT
  5
43
102
{ACAD_REACTORS
330
37
102
}
330
37
100
AcDbProxyObject
 90
      499
 91
      507
 95
   983063
 70
     0
 93
      121
310
905313A3130004000000000000244000
  0
ACAD_PROXY_OBJECT
  5
44
102
{ACAD_REACTORS
330
37
102
}
330
37
100
AcDbProxyObject
 90
      499
 91
      507
 95
   983063
 70
     0
 93
      121
310
905313A3136004000000000000304000
  0
ACAD_PROXY_OBJECT
  5
45
102
{ACAD_REACTORS
330
37
102
}
330
37
100
AcDbProxyObject
 90
      499
 91
      507
 95
   983063
 70
     0
 93
      121
310
905313A3230004000000000000344000
  0
ACAD_PROXY_OBJECT
  5
46
102
{ACAD_REACTORS
330
37
102
}
330
37
100
AcDbProxyObject
 90
      499
 91
      507
 95
   983063
 70
     0
 93
      121
310
905313A33300040000000000003E4000
  0
ACAD_PROXY_OBJECT
  5
47
102
{ACAD_REACTORS
330
37
102
}
330
37
100
AcDbProxyObject
 90
      499
 91
      507
 95
   983063
 70
     0
 93
      121
310
905313A3430004000000000000444000
  0
ACAD_PROXY_OBJECT
  5
48
102
{ACAD_REACTORS
330
37
102
}
330
37
100
AcDbProxyObject
 90
      499
 91
      507
 95
   983063
 70
     0
 93
      121
310
905313A3530004000000000000494000
  0
ACAD_PROXY_OBJECT
  5
49
102
{ACAD_REACTORS
330
37
102
}
330
37
100
AcDbProxyObject
 90
      499
 91
      507
 95
   983063
 70
     0
 93
      129
310
906313A313030004000000000000594000
  0
ACAD_PROXY_OBJECT
  5
4A
102
{ACAD_REACTORS
330
37
102
}
330
37
100
AcDbProxyObject
 90
      499
 91
      507
 95
   983063
 70
     0
 93
      113
310
904323A31000000000000000010100
  0
ACAD_PROXY_OBJECT
  5
4B
102
{ACAD_REACTORS
330
37
102
}
330
37
100
AcDbProxyObject
 90
      499
 91
      507
 95
   983063
 70
     0
 93
      113
310
904343A31000000000000000410100
  0
ACAD_PROXY_OBJECT
  5
4C
102
{ACAD_REACTORS
330
37
102
}
330
37
100
AcDbProxyObject
 90
      499
 91
      507
 95
   983063
 70
     0
 93
      113
310
904383A31000000000000000810100
  0
ACAD_PROXY_OBJECT
  5
4D
102
{ACAD_REACTORS
330
37
102
}
330
37
100
AcDbProxyObject
 90
      499
 91
      507
 95
   983063
 70
     0
 93
      121
310
90531303A31000000000000000910100
  0
ACAD_PROXY_OBJECT
  5
4E
102
{ACAD_REACTORS
330
37
102
}
330
37
100
AcDbProxyObject
 90
      499
 91
      507
 95
   983063
 70
     0
 93
      129
310
9063130303A31000000000000001650100
  0
ACAD_PROXY_OBJECT
  5
4F
102
{ACAD_REACTORS
330
37
102
}
330
37
100
AcDbProxyObject
 90
      499
 91
      507
 95
   983063
 70
     0
 93
      265
310
90F312F31323822203D2031272D302200000000000000200FC000000000000284000
  0
ACAD_PROXY_OBJECT
  5
50
102
{ACAD_REACTORS
330
37
102
}
330
37
100
AcDbProxyObject
 90
      499
 91
      507
 95
   983063
 70
     0
 93
      257
310
90E312F363422203D2031272D302200000000000000240FC000000000000284000
  0
ACAD_PROXY_OBJECT
  5
51
102
{ACAD_REACTORS
330
37
102
}
330
37
100
AcDbProxyObject
 90
      499
 91
      507
 95
   983063
 70
     0
 93
      257
310
90E312F333222203D2031272D302200000000000000280FC000000000000284000
  0
ACAD_PROXY_OBJECT
  5
52
102
{ACAD_REACTORS
330
37
102
}
330
37
100
AcDbProxyObject
 90
      499
 91
      507
 95
   983063
 70
     0
 93
      257
310
90E312F313622203D2031272D3022000000000000002C0FC000000000000284000
  0
ACAD_PROXY_OBJECT
  5
53
102
{ACAD_REACTORS
330
37
102
}
330
37
100
AcDbProxyObject
 90
      499
 91
      507
 95
   983063
 70
     0
 93
      257
310
90E332F333222203D2031272D3022000000000000002E0FC000000000000284000
  0
ACAD_PROXY_OBJECT
  5
54
102
{ACAD_REACTORS
330
37
102
}
330
37
100
AcDbProxyObject
 90
      499
 91
      507
 95
   983063
 70
     0
 93
      249
310
90D312F3822203D2031272D302200000000000000300FC000000000000284000
  0
ACAD_PROXY_OBJECT
  5
55
102
{ACAD_REACTORS
330
37
102
}
330
37
100
AcDbProxyObject
 90
      499
 91
      507
 95
   983063
 70
     0
 93
      257
310
90E332F313622203D2031272D302200000000000000320FC000000000000284000
  0
ACAD_PROXY_OBJECT
  5
56
102
{ACAD_REACTORS
330
37
102
}
330
37
100
AcDbProxyObject
 90
      499
 91
      507
 95
   983063
 70
     0
 93
      249
310
90D312F3422203D2031272D302200000000000000340FC000000000000284000
  0
ACAD_PROXY_OBJECT
  5
57
102
{ACAD_REACTORS
330
37
102
}
330
37
100
AcDbProxyObject
 90
      499
 91
      507
 95
   983063
 70
     0
 93
      249
310
90D332F3822203D2031272D302200000000000000360FC000000000000284000
  0
ACAD_PROXY_OBJECT
  5
58
102
{ACAD_REACTORS
330
37
102
}
330
37
100
AcDbProxyObject
 90
      499
 91
      507
 95
   983063
 70
     0
 93
      249
310
90D312F3222203D2031272D302200000000000000380FC000000000000284000
  0
ACAD_PROXY_OBJECT
  5
59
102
{ACAD_REACTORS
330
37
102
}
330
37
100
AcDbProxyObject
 90
      499
 91
      507
 95
   983063
 70
     0
 93
      249
310
90D332F3422203D2031272D3022000000000000003A0FC000000000000284000
  0
ACAD_PROXY_OBJECT
  5
5A
102
{ACAD_REACTORS
330
37
102
}
330
37
100
AcDbProxyObject
 90
      499
 91
      507
 95
   983063
 70
     0
 93
      169
310
90B3122203D2031272D3022004000000000000284000
  0
ACAD_PROXY_OBJECT
  5
5B
102
{ACAD_REACTORS
330
37
102
}
330
37
100
AcDbProxyObject
 90
      499
 91
      507
 95
   983063
 70
     0
 93
      265
310
90F312D312F3222203D2031272D3022000000000000003E0FC000000000000284000
  0
ACAD_PROXY_OBJECT
  5
5C
102
{ACAD_REACTORS
330
37
102
}
330
37
100
AcDbProxyObject
 90
      499
 91
      507
 95
   983063
 70
     0
 93
      233
310
90B3322203D2031272D30220000000000000002100000000000000284000
  0
ACAD_PROXY_OBJECT
  5
5D
102
{ACAD_REACTORS
330
37
102
}
330
37
100
AcDbProxyObject
 90
      499
 91
      507
 95
   983063
 70
     0
 93
      233
310
90B3622203D2031272D30220000000000000006100000000000000284000
  0
ACAD_PROXY_OBJECT
  5
5E
102
{ACAD_REACTORS
330
37
102
}
330
37
100
AcDbProxyObject
 90
      499
 91
      507
 95
   983063
 70
     0
 93
      257
310
90E31272D3022203D2031272D3022000000000000000A100000000000000284000
  0
TABLESTYLE
  5
3A
102
{ACAD_REACTORS
330
38
102
}
102
{ACAD_XDICTIONARY
360
3B
102
}
330
38
100
AcDbTableStyle
  3
Standard
 70
     0
 71
     0
 40
0.06
 41
0.06
280
     0
281
     0
  7
Standard
140
0.18
170
     2
 62
     0
 63
     7
283
     0
274
    -2
284
     1
 64
     0
275
    -2
285
     1
 65
     0
276
    -2
286
     1
 66
     0
277
    -2
287
     1
 67
     0
278
    -2
288
     1
 68
     0
279
    -2
289
     1
 69
     0
  7
Standard
140
0.25
170
     5
 62
     0
 63
     7
283
     0
274
    -2
284
     1
 64
     0
275
    -2
285
     1
 65
     0
276
    -2
286
     1
 66
     0
277
    -2
287
     1
 67
     0
278
    -2
288
     1
 68
     0
279
    -2
289
     1
 69
     0
  7
Standard
140
0.18
170
     5
 62
     0
 63
     7
283
     0
274
    -2
284
     1
 64
     0
275
    -2
285
     1
 65
     0
276
    -2
286
     1
 66
     0
277
    -2
287
     1
 67
     0
278
    -2
288
     1
 68
     0
279
    -2
289
     1
 69
     0
  0
ACAD_PROXY_OBJECT
  5
2B
102
{ACAD_REACTORS
330
2C
102
}
330
2C
100
AcDbProxyObject
 90
      499
 91
      506
 95
   983063
 70
     0
 93
      452
310
430C9915DA5C99599C985B5940104902404333333333333E3BF0000000000000FB0107901411070040501600405405064090741402480A0340
1001
ACAD
1000
AcDbSavedByObjectVersion
1070
     0
  0
ACAD_PROXY_OBJECT
  5
3D
102
{ACAD_REACTORS
330
2C
102
}
330
2C
100
AcDbProxyObject
 90
      499
 91
      506
 95
   983063
 70
     0
 93
      452
310
430CD915DA5C99599C985B5940105902404333333333333E3BF0000000000000FB0107901411070040501600405405064090741402480A0340
1001
ACAD
1000
AcDbSavedByObjectVersion
1070
     0
  0
ACAD_PROXY_OBJECT
  5
3C
102
{ACAD_REACTORS
330
2C
102
}
330
2C
100
AcDbProxyObject
 90
      499
 91
      506
 95
   983063
 70
     0
 93
      436
310
429499585B1A5CDD1A58C010840902404333333333333E3BF0000000000000FB01079019070040501508421405064090741402480A1B40
1001
ACAD
1000
AcDbSavedByObjectVersion
1070
     0
  0
XRECORD
  5
E2
102
{ACAD_REACTORS
330
E1
102
}
330
E1
100
AcDbXrecord
280
     1
340
36
  0
XRECORD
  5
E3
102
{ACAD_REACTORS
330
E1
102
}
330
E1
100
AcDbXrecord
280
     1
340
D
  0
DICTIONARYVAR
  5
DB
102
{ACAD_REACTORS
330
D7
102
}
330
D7
100
DictionaryVariables
280
     0
  1
1:1
  0
DICTIONARYVAR
  5
D9
102
{ACAD_REACTORS
330
D7
102
}
330
D7
100
DictionaryVariables
280
     0
  1
STANDARD
  0
DICTIONARYVAR
  5
D8
102
{ACAD_REACTORS
330
D7
102
}
330
D7
100
DictionaryVariables
280
     0
  1
STANDARD
  0
DICTIONARYVAR
  5
E0
102
{ACAD_REACTORS
330
D7
102
}
330
D7
100
DictionaryVariables
280
     0
  1
2
  0
DICTIONARYVAR
  5
DF
102
{ACAD_REACTORS
330
D7
102
}
330
D7
100
DictionaryVariables
280
     0
  1
1
  0
DICTIONARYVAR
  5
DC
102
{ACAD_REACTORS
330
D7
102
}
330
D7
100
DictionaryVariables
280
     0
  1
2
  0
DICTIONARYVAR
  5
DA
102
{ACAD_REACTORS
330
D7
102
}
330
D7
100
DictionaryVariables
280
     0
  1
1
  0
DICTIONARY
  5
D3
330
35
100
AcDbDictionary
280
     1
281
     1
  3
ACAD_XREC_ROUNDTRIP
360
D4
  0
DICTIONARY
  5
D1
330
34
100
AcDbDictionary
280
     1
281
     1
  3
ACAD_XREC_ROUNDTRIP
360
D2
  0
DICTIONARY
  5
E
330
C
100
AcDbDictionary
280
     1
281
     1
  3
ACAD_XREC_ROUNDTRIP
360
CC
  3
BUMPTILE
360
F
  3
DIFFUSETILE
360
10
  3
OPACITYTILE
360
11
  3
REFLECTIONTILE
360
12
  0
DICTIONARY
  5
3B
330
3A
100
AcDbDictionary
280
     1
281
     1
  3
ACAD_ROUNDTRIP_2008_TABLESTYLE_CELLSTYLEMAP
360
CA
  3
ACAD_XREC_ROUNDTRIP
360
D5
  0
XRECORD
  5
D4
102
{ACAD_REACTORS
330
D3
102
}
330
D3
100
AcDbXrecord
280
     1
102
MATERIAL
148
0.0
149
0.0
149
0.0
 93
        0
 94
       63
282
     0
 72
     1
 77
     1
171
     1
175
     1
179
     1
273
     0
  0
XRECORD
  5
D2
102
{ACAD_REACTORS
330
D1
102
}
330
D1
100
AcDbXrecord
280
     1
102
MATERIAL
148
0.0
149
0.0
149
0.0
 93
        0
 94
       63
282
     0
 72
     1
 77
     1
171
     1
175
     1
179
     1
273
     0
  0
XRECORD
  5
CC
102
{ACAD_REACTORS
330
E
102
}
330
E
100
AcDbXrecord
280
     1
102
MATERIAL
148
0.0
149
0.0
149
0.0
 93
        0
 94
       63
282
     0
 72
     1
 77
     1
171
     1
175
     1
179
     1
273
     0
  0
XRECORD
  5
F
102
{ACAD_REACTORS
330
E
102
}
330
E
100
AcDbXrecord
280
     1
270
     1
271
     1
  0
XRECORD
  5
10
102
{ACAD_REACTORS
330
E
102
}
330
E
100
AcDbXrecord
280
     1
270
     1
271
     1
  0
XRECORD
  5
11
102
{ACAD_REACTORS
330
E
102
}
330
E
100
AcDbXrecord
280
     1
270
     1
271
     1
  0
XRECORD
  5
12
102
{ACAD_REACTORS
330
E
102
}
330
E
100
AcDbXrecord
280
     1
270
     1
271
     1
  0
ACAD_PROXY_OBJECT
  5
CA
102
{ACAD_REACTORS
330
3B
102
}
330
3B
100
AcDbProxyObject
 90
      499
 91
      509
 95
   983063
 70
     0
 93
     5304
310
40D054060020000020000003200101A000080002A5058000000C100000000000000340FD012E07A17AD46E2B8FCB81E85EB51B8AE3F2E07A17AD46E2B8FCB81E85EB51B8AE3F02B5E8DC0F42B1CFC0AD7A3703D0AC73F419019018000000C1003FBFFFFFE02B5E8DC0F42A9CFD029018000000C1003FBFFFFFE02B5E8DC0F4
310
2A9CFD049018000000C1003FBFFFFFE02B5E8DC0F42A9CFD089018000000C1003FBFFFFFE02B5E8DC0F42A9CFD109018000000C1003FBFFFFFE02B5E8DC0F42A9CFD209018000000C1003FBFFFFFE02B5E8DC0F42A9CFD01405075F5449544C450041501A8000000C800406800020000A9416000000304000AD7A3703D0AC7
310
3F404B81E85EB51B8AE3F2E07A17AD46E2B8FCB81E85EB51B8AE3F2E07A17AD46E2B8FC0AD7A3703D0AC73F02B5E8DC0F42B1CFD0640640600000030400FEFFFFFF80AD7A3703D0AA73F40A40600000030400FEFFFFFF80AD7A3703D0AA73F41240600000030400FEFFFFFF80AD7A3703D0AA73F42240600000030400FEFFF
310
FFF80AD7A3703D0AA73F44240600000030400FEFFFFFF80AD7A3703D0AA73F48240600000030400FEFFFFFF80AD7A3703D0AA73F409014217D2115051115480105406A0000003200101A000080002A5028000000C10002B5E8DC0F42B1CFD012E07A17AD46E2B8FCB81E85EB51B8AE3F2E07A17AD46E2B8FCB81E85EB51B8A
310
E3F02B5E8DC0F42B1CFC0AD7A3703D0AC73F419019018000000C1003FBFFFFFE02B5E8DC0F42A9CFD029018000000C1003FBFFFFFE02B5E8DC0F42A9CFD049018000000C1003FBFFFFFE02B5E8DC0F42A9CFD089018000000C1003FBFFFFFE02B5E8DC0F42A9CFD109018000000C1003FBFFFFFE02B5E8DC0F42A9CFD20901
310
8000000C1003FBFFFFFE02B5E8DC0F42A9CFD03409065F4441544100
340
22
340
0
340
0
340
0
340
0
340
0
340
0
340
22
340
0
340
0
340
0
340
0
340
0
340
0
340
22
340
0
340
0
340
0
340
0
340
0
340
0
 94
        0
  0
XRECORD
  5
D5
102
{ACAD_REACTORS
330
3B
102
}
330
3B
100
AcDbXrecord
280
     1
102
ACAD_ROUNDTRIP_PRE2007_TABLESTYLE
 90
      512
 91
        0
  1

 92
      512
 93
        0
  2

 94
      512
 95
        0
  3

  0
ENDSEC
  0
EOF
